Les tablatures : 54

Sans rire (2013)

C'est pas tout ça... (2010)

En attendant (2009)

Bref... Septembre 2008

  • Ma p'tite chanson
  • J'espère...
  • Bref

Jours heureux (2007)

Blancs Manteaux à Volo (2006)

Bien Zarbos (2004)

Tablature : Toujours à côté

04-02-2013

Partager cette tablature

Télécharger la version imprimable


Ecouter un extrait composé de différentes parties de la tablature :



Légende :
                 x : Corde jouée étouffée
||------|| (xN) : Jouer N fois la partie entre les ||


Intro :

     A                                       C#m
e ||-5-5-5-x-|-5-5-5-x-|-5-5-5-x-|-5-5-5-x-|-4-4-4-x-|-4-4-4-x-|-4-4-4-x-|-4-4-4-x-|
B ||-5-5-5-x-|-5-5-5-x-|-5-5-5-x-|-5-5-5-x-|-5-5-5-x-|-5-5-5-x-|-5-5-5-x-|-5-5-5-x-|
G ||-6-6-6-x-|-6-6-6-x-|-6-6-6-x-|-6-6-6-x-|-6-6-6-x-|-6-6-6-x-|-6-6-6-x-|-6-6-6-x-|
D ||-7-7-7-x-|-7-7-7-x-|-7-7-7-x-|-7-7-7-x-|-6-6-6-x-|-6-6-6-x-|-6-6-6-x-|-6-6-6-x-|
A ||-7-7-7-x-|-7-7-7-x-|-7-7-7-x-|-7-7-7-x-|-4-4-4-x-|-4-4-4-x-|-4-4-4-x-|-4-4-4-x-|
E ||-5-5-5-x-|-5-5-5-x-|-5-5-5-x-|-5-5-5-x-|-4-4-4-x-|-4-4-4-x-|-4-4-4-x-|-4-4-4-x-|
                            Hum hum hummmmm hum...
    F#m                                                 E
e |-9--9--9--x-|-9--9--9--x-|-9--9--9--x-|-9--9--9--x-|-0-0-0-x-|-0-0-0-x-|-0-0-0-x-|-0-0-0-x-|
B |-10-10-10-x-|-10-10-10-x-|-10-10-10-x-|-10-10-10-x-|-0-0-0-x-|-0-0-0-x-|-0-0-0-x-|-0-0-0-x-|
G |-11-11-11-x-|-11-11-11-x-|-11-11-11-x-|-11-11-11-x-|-1-1-1-x-|-1-1-1-x-|-1-1-1-x-|-1-1-1-x-|
D |-11-11-11-x-|-11-11-11-x-|-11-11-11-x-|-11-11-11-x-|-2-2-2-x-|-2-2-2-x-|-2-2-2-x-|-2-2-2-x-|
A |-9--9--9--x-|-9--9--9--x-|-9--9--9--x-|-9--9--9--x-|-2-2-2-x-|-2-2-2-x-|-2-2-2-x-|-2-2-2-x-|
E |-9--9--9--x-|-9--9--9--x-|-9--9--9--x-|-9--9--9--x-|-0-0-0-x-|-0-0-0-x-|-0-0-0-x-|-0-0-0-x-|

Premier Couplet :

     A                                       C#m
e ||-5-5-5-x-|-5-5-5-x-|-5-5-5-x-|-5-5-5-x-|-4-4-4-x-|-4-4-4-x-|-4-4-4-x-|-4-4-4-x-|
B ||-5-5-5-x-|-5-5-5-x-|-5-5-5-x-|-5-5-5-x-|-5-5-5-x-|-5-5-5-x-|-5-5-5-x-|-5-5-5-x-|
G ||-6-6-6-x-|-6-6-6-x-|-6-6-6-x-|-6-6-6-x-|-6-6-6-x-|-6-6-6-x-|-6-6-6-x-|-6-6-6-x-|
D ||-7-7-7-x-|-7-7-7-x-|-7-7-7-x-|-7-7-7-x-|-6-6-6-x-|-6-6-6-x-|-6-6-6-x-|-6-6-6-x-|
A ||-7-7-7-x-|-7-7-7-x-|-7-7-7-x-|-7-7-7-x-|-4-4-4-x-|-4-4-4-x-|-4-4-4-x-|-4-4-4-x-|
E ||-5-5-5-x-|-5-5-5-x-|-5-5-5-x-|-5-5-5-x-|-4-4-4-x-|-4-4-4-x-|-4-4-4-x-|-4-4-4-x-|

    F#m                                                 E
e |-9--9--9--x-|-9--9--9--x-|-9--9--9--x-|-9--9--9--x-|-0-0-0-x-|-0-0-0-x-|-0-0-0-x-|-0-0-0-x-||
B |-10-10-10-x-|-10-10-10-x-|-10-10-10-x-|-10-10-10-x-|-0-0-0-x-|-0-0-0-x-|-0-0-0-x-|-0-0-0-x-||
G |-11-11-11-x-|-11-11-11-x-|-11-11-11-x-|-11-11-11-x-|-1-1-1-x-|-1-1-1-x-|-1-1-1-x-|-1-1-1-x-||
D |-11-11-11-x-|-11-11-11-x-|-11-11-11-x-|-11-11-11-x-|-2-2-2-x-|-2-2-2-x-|-2-2-2-x-|-2-2-2-x-||
A |-9--9--9--x-|-9--9--9--x-|-9--9--9--x-|-9--9--9--x-|-2-2-2-x-|-2-2-2-x-|-2-2-2-x-|-2-2-2-x-||
E |-9--9--9--x-|-9--9--9--x-|-9--9--9--x-|-9--9--9--x-|-0-0-0-x-|-0-0-0-x-|-0-0-0-x-|-0-0-0-x-||

(x2)

Refrain :

    F                                       Dm
e |-1-1-1-x-|-1-1-1-x-|-1-1-1-x-|-1-1-1-x-|-5-5-5-x-|-5-5-5-x-|-5-5-5-x-|-5-5-5-x-|
B |-1-1-1-x-|-1-1-1-x-|-1-1-1-x-|-1-1-1-x-|-6-6-6-x-|-6-6-6-x-|-6-6-6-x-|-6-6-6-x-|
G |-2-2-2-x-|-2-2-2-x-|-2-2-2-x-|-2-2-2-x-|-7-7-7-x-|-7-7-7-x-|-7-7-7-x-|-7-7-7-x-|
D |-3-3-3-x-|-3-3-3-x-|-3-3-3-x-|-3-3-3-x-|-7-7-7-x-|-7-7-7-x-|-7-7-7-x-|-7-7-7-x-|
A |-3-3-3-x-|-3-3-3-x-|-3-3-3-x-|-3-3-3-x-|-5-5-5-x-|-5-5-5-x-|-5-5-5-x-|-5-5-5-x-|
E |-1-1-1-x-|-1-1-1-x-|-1-1-1-x-|-1-1-1-x-|-5-5-5-x-|-5-5-5-x-|-5-5-5-x-|-5-5-5-x-|

    A#                                      C
e |-6-6-6-x-|-6-6-6-x-|-6-6-6-x-|-6-6-6-x-|-8--8--8--x-|-8--8--8--x-|-8--8--8--x-|-8--8--8--x-|
B |-6-6-6-x-|-6-6-6-x-|-6-6-6-x-|-6-6-6-x-|-8--8--8--x-|-8--8--8--x-|-8--8--8--x-|-8--8--8--x-|
G |-7-7-7-x-|-7-7-7-x-|-7-7-7-x-|-7-7-7-x-|-9--9--9--x-|-9--9--9--x-|-9--9--9--x-|-9--9--9--x-|
D |-8-8-8-x-|-8-8-8-x-|-8-8-8-x-|-8-8-8-x-|-10-10-10-x-|-10-10-10-x-|-10-10-10-x-|-10-10-10-x-|
A |-8-8-8-x-|-8-8-8-x-|-8-8-8-x-|-8-8-8-x-|-10-10-10-x-|-10-10-10-x-|-10-10-10-x-|-10-10-10-x-|
E |-6-6-6-x-|-6-6-6-x-|-6-6-6-x-|-6-6-6-x-|-8--8--8--x-|-8--8--8--x-|-8--8--8--x-|-8--8--8--x-|

    F                                       Dm
e |-1-1-1-x-|-1-1-1-x-|-1-1-1-x-|-1-1-1-x-|-5-5-5-x-|-5-5-5-x-|-5-5-5-x-|-5-5-5-x-|
B |-1-1-1-x-|-1-1-1-x-|-1-1-1-x-|-1-1-1-x-|-6-6-6-x-|-6-6-6-x-|-6-6-6-x-|-6-6-6-x-|
G |-2-2-2-x-|-2-2-2-x-|-2-2-2-x-|-2-2-2-x-|-7-7-7-x-|-7-7-7-x-|-7-7-7-x-|-7-7-7-x-|
D |-3-3-3-x-|-3-3-3-x-|-3-3-3-x-|-3-3-3-x-|-7-7-7-x-|-7-7-7-x-|-7-7-7-x-|-7-7-7-x-|
A |-3-3-3-x-|-3-3-3-x-|-3-3-3-x-|-3-3-3-x-|-5-5-5-x-|-5-5-5-x-|-5-5-5-x-|-5-5-5-x-|
E |-1-1-1-x-|-1-1-1-x-|-1-1-1-x-|-1-1-1-x-|-5-5-5-x-|-5-5-5-x-|-5-5-5-x-|-5-5-5-x-|

    A#                                      C
e |-6-6-6-x-|-6-6-6-x-|-6-6-6-x-|-6-6-6-x-|-8--8-------|------------|------------|------------|
B |-6-6-6-x-|-6-6-6-x-|-6-6-6-x-|-6-6-6-x-|-8--8-------|------------|------------|------------|
G |-7-7-7-x-|-7-7-7-x-|-7-7-7-x-|-7-7-7-x-|-9--9-------|------------|------------|------------|
D |-8-8-8-x-|-8-8-8-x-|-8-8-8-x-|-8-8-8-x-|-10-10------|------------|------------|------------|
A |-8-8-8-x-|-8-8-8-x-|-8-8-8-x-|-8-8-8-x-|-10-10------|------------|------------|------------|
E |-6-6-6-x-|-6-6-6-x-|-6-6-6-x-|-6-6-6-x-|-8--8-------|------------|------------|------------|






    A                                       C#m
e |-5-5-5-x-|-5-5-5-x-|-5-5-5-x-|-5-5-5-x-|-4-4-4-x-|-4-4-4-x-|-4-4-4-x-|-4-4-4-x-|
B |-5-5-5-x-|-5-5-5-x-|-5-5-5-x-|-5-5-5-x-|-5-5-5-x-|-5-5-5-x-|-5-5-5-x-|-5-5-5-x-|
G |-6-6-6-x-|-6-6-6-x-|-6-6-6-x-|-6-6-6-x-|-6-6-6-x-|-6-6-6-x-|-6-6-6-x-|-6-6-6-x-|
D |-7-7-7-x-|-7-7-7-x-|-7-7-7-x-|-7-7-7-x-|-6-6-6-x-|-6-6-6-x-|-6-6-6-x-|-6-6-6-x-|
A |-7-7-7-x-|-7-7-7-x-|-7-7-7-x-|-7-7-7-x-|-4-4-4-x-|-4-4-4-x-|-4-4-4-x-|-4-4-4-x-|
E |-5-5-5-x-|-5-5-5-x-|-5-5-5-x-|-5-5-5-x-|-4-4-4-x-|-4-4-4-x-|-4-4-4-x-|-4-4-4-x-|
                            Hum hum hummmmm hum...
    F#m                                                 E
e |-9--9--9--x-|-9--9--9--x-|-9--9--9--x-|-9--9--9--x-|-0-0-0-x-|-0-0-0-x-|-0-0-0-x-|-0-0-0-x-|
B |-10-10-10-x-|-10-10-10-x-|-10-10-10-x-|-10-10-10-x-|-0-0-0-x-|-0-0-0-x-|-0-0-0-x-|-0-0-0-x-|
G |-11-11-11-x-|-11-11-11-x-|-11-11-11-x-|-11-11-11-x-|-1-1-1-x-|-1-1-1-x-|-1-1-1-x-|-1-1-1-x-|
D |-11-11-11-x-|-11-11-11-x-|-11-11-11-x-|-11-11-11-x-|-2-2-2-x-|-2-2-2-x-|-2-2-2-x-|-2-2-2-x-|
A |-9--9--9--x-|-9--9--9--x-|-9--9--9--x-|-9--9--9--x-|-2-2-2-x-|-2-2-2-x-|-2-2-2-x-|-2-2-2-x-|
E |-9--9--9--x-|-9--9--9--x-|-9--9--9--x-|-9--9--9--x-|-0-0-0-x-|-0-0-0-x-|-0-0-0-x-|-0-0-0-x-|

Second Couplet : (Comme le premier)

     A                                       C#m
e ||-5-5-5-x-|-5-5-5-x-|-5-5-5-x-|-5-5-5-x-|-4-4-4-x-|-4-4-4-x-|-4-4-4-x-|-4-4-4-x-|
B ||-5-5-5-x-|-5-5-5-x-|-5-5-5-x-|-5-5-5-x-|-5-5-5-x-|-5-5-5-x-|-5-5-5-x-|-5-5-5-x-|
G ||-6-6-6-x-|-6-6-6-x-|-6-6-6-x-|-6-6-6-x-|-6-6-6-x-|-6-6-6-x-|-6-6-6-x-|-6-6-6-x-|
D ||-7-7-7-x-|-7-7-7-x-|-7-7-7-x-|-7-7-7-x-|-6-6-6-x-|-6-6-6-x-|-6-6-6-x-|-6-6-6-x-|
A ||-7-7-7-x-|-7-7-7-x-|-7-7-7-x-|-7-7-7-x-|-4-4-4-x-|-4-4-4-x-|-4-4-4-x-|-4-4-4-x-|
E ||-5-5-5-x-|-5-5-5-x-|-5-5-5-x-|-5-5-5-x-|-4-4-4-x-|-4-4-4-x-|-4-4-4-x-|-4-4-4-x-|

    F#m                                                 E
e |-9--9--9--x-|-9--9--9--x-|-9--9--9--x-|-9--9--9--x-|-0-0-0-x-|-0-0-0-x-|-0-0-0-x-|-0-0-0-x-||
B |-10-10-10-x-|-10-10-10-x-|-10-10-10-x-|-10-10-10-x-|-0-0-0-x-|-0-0-0-x-|-0-0-0-x-|-0-0-0-x-||
G |-11-11-11-x-|-11-11-11-x-|-11-11-11-x-|-11-11-11-x-|-1-1-1-x-|-1-1-1-x-|-1-1-1-x-|-1-1-1-x-||
D |-11-11-11-x-|-11-11-11-x-|-11-11-11-x-|-11-11-11-x-|-2-2-2-x-|-2-2-2-x-|-2-2-2-x-|-2-2-2-x-||
A |-9--9--9--x-|-9--9--9--x-|-9--9--9--x-|-9--9--9--x-|-2-2-2-x-|-2-2-2-x-|-2-2-2-x-|-2-2-2-x-||
E |-9--9--9--x-|-9--9--9--x-|-9--9--9--x-|-9--9--9--x-|-0-0-0-x-|-0-0-0-x-|-0-0-0-x-|-0-0-0-x-||

(x2)






    A                                       C#m
e |-5-5-5-x-|-5-5-5-x-|-5-5-5-x-|-5-5-5-x-|-4-4-4-x-|-4-4-4-x-|-4-4-4-x-|-4-4-4-x-|
B |-5-5-5-x-|-5-5-5-x-|-5-5-5-x-|-5-5-5-x-|-5-5-5-x-|-5-5-5-x-|-5-5-5-x-|-5-5-5-x-|
G |-6-6-6-x-|-6-6-6-x-|-6-6-6-x-|-6-6-6-x-|-6-6-6-x-|-6-6-6-x-|-6-6-6-x-|-6-6-6-x-|
D |-7-7-7-x-|-7-7-7-x-|-7-7-7-x-|-7-7-7-x-|-6-6-6-x-|-6-6-6-x-|-6-6-6-x-|-6-6-6-x-|
A |-7-7-7-x-|-7-7-7-x-|-7-7-7-x-|-7-7-7-x-|-4-4-4-x-|-4-4-4-x-|-4-4-4-x-|-4-4-4-x-|
E |-5-5-5-x-|-5-5-5-x-|-5-5-5-x-|-5-5-5-x-|-4-4-4-x-|-4-4-4-x-|-4-4-4-x-|-4-4-4-x-|
                            Hum hum hummmmm hum...
    F#m                                                 E
e |-9--9--9--x-|-9--9--9--x-|-9--9--9--x-|-9--9--9--x-|-0-0-0-x-|-0-0-0-x-|-0-0-0-x-|-0-0-0-x-|
B |-10-10-10-x-|-10-10-10-x-|-10-10-10-x-|-10-10-10-x-|-0-0-0-x-|-0-0-0-x-|-0-0-0-x-|-0-0-0-x-|
G |-11-11-11-x-|-11-11-11-x-|-11-11-11-x-|-11-11-11-x-|-1-1-1-x-|-1-1-1-x-|-1-1-1-x-|-1-1-1-x-|
D |-11-11-11-x-|-11-11-11-x-|-11-11-11-x-|-11-11-11-x-|-2-2-2-x-|-2-2-2-x-|-2-2-2-x-|-2-2-2-x-|
A |-9--9--9--x-|-9--9--9--x-|-9--9--9--x-|-9--9--9--x-|-2-2-2-x-|-2-2-2-x-|-2-2-2-x-|-2-2-2-x-|
E |-9--9--9--x-|-9--9--9--x-|-9--9--9--x-|-9--9--9--x-|-0-0-0-x-|-0-0-0-x-|-0-0-0-x-|-0-0-0-x-|

Refrain :

    F                                       Dm
e |-1-1-1-x-|-1-1-1-x-|-1-1-1-x-|-1-1-1-x-|-5-5-5-x-|-5-5-5-x-|-5-5-5-x-|-5-5-5-x-|
B |-1-1-1-x-|-1-1-1-x-|-1-1-1-x-|-1-1-1-x-|-6-6-6-x-|-6-6-6-x-|-6-6-6-x-|-6-6-6-x-|
G |-2-2-2-x-|-2-2-2-x-|-2-2-2-x-|-2-2-2-x-|-7-7-7-x-|-7-7-7-x-|-7-7-7-x-|-7-7-7-x-|
D |-3-3-3-x-|-3-3-3-x-|-3-3-3-x-|-3-3-3-x-|-7-7-7-x-|-7-7-7-x-|-7-7-7-x-|-7-7-7-x-|
A |-3-3-3-x-|-3-3-3-x-|-3-3-3-x-|-3-3-3-x-|-5-5-5-x-|-5-5-5-x-|-5-5-5-x-|-5-5-5-x-|
E |-1-1-1-x-|-1-1-1-x-|-1-1-1-x-|-1-1-1-x-|-5-5-5-x-|-5-5-5-x-|-5-5-5-x-|-5-5-5-x-|

    A#                                      C
e |-6-6-6-x-|-6-6-6-x-|-6-6-6-x-|-6-6-6-x-|-8--8--8--x-|-8--8--8--x-|-8--8--8--x-|-8--8--8--x-|
B |-6-6-6-x-|-6-6-6-x-|-6-6-6-x-|-6-6-6-x-|-8--8--8--x-|-8--8--8--x-|-8--8--8--x-|-8--8--8--x-|
G |-7-7-7-x-|-7-7-7-x-|-7-7-7-x-|-7-7-7-x-|-9--9--9--x-|-9--9--9--x-|-9--9--9--x-|-9--9--9--x-|
D |-8-8-8-x-|-8-8-8-x-|-8-8-8-x-|-8-8-8-x-|-10-10-10-x-|-10-10-10-x-|-10-10-10-x-|-10-10-10-x-|
A |-8-8-8-x-|-8-8-8-x-|-8-8-8-x-|-8-8-8-x-|-10-10-10-x-|-10-10-10-x-|-10-10-10-x-|-10-10-10-x-|
E |-6-6-6-x-|-6-6-6-x-|-6-6-6-x-|-6-6-6-x-|-8--8--8--x-|-8--8--8--x-|-8--8--8--x-|-8--8--8--x-|

    F                                       Dm
e |-1-1-1-x-|-1-1-1-x-|-1-1-1-x-|-1-1-1-x-|-5-5-5-x-|-5-5-5-x-|-5-5-5-x-|-5-5-5-x-|
B |-1-1-1-x-|-1-1-1-x-|-1-1-1-x-|-1-1-1-x-|-6-6-6-x-|-6-6-6-x-|-6-6-6-x-|-6-6-6-x-|
G |-2-2-2-x-|-2-2-2-x-|-2-2-2-x-|-2-2-2-x-|-7-7-7-x-|-7-7-7-x-|-7-7-7-x-|-7-7-7-x-|
D |-3-3-3-x-|-3-3-3-x-|-3-3-3-x-|-3-3-3-x-|-7-7-7-x-|-7-7-7-x-|-7-7-7-x-|-7-7-7-x-|
A |-3-3-3-x-|-3-3-3-x-|-3-3-3-x-|-3-3-3-x-|-5-5-5-x-|-5-5-5-x-|-5-5-5-x-|-5-5-5-x-|
E |-1-1-1-x-|-1-1-1-x-|-1-1-1-x-|-1-1-1-x-|-5-5-5-x-|-5-5-5-x-|-5-5-5-x-|-5-5-5-x-|

    A#                                      C
e |-6-6-6-x-|-6-6-6-x-|-6-6-6-x-|-6-6-6-x-|-8--8-------|------------|------------|------------|
B |-6-6-6-x-|-6-6-6-x-|-6-6-6-x-|-6-6-6-x-|-8--8-------|------------|------------|------------|
G |-7-7-7-x-|-7-7-7-x-|-7-7-7-x-|-7-7-7-x-|-9--9-------|------------|------------|------------|
D |-8-8-8-x-|-8-8-8-x-|-8-8-8-x-|-8-8-8-x-|-10-10------|------------|------------|------------|
A |-8-8-8-x-|-8-8-8-x-|-8-8-8-x-|-8-8-8-x-|-10-10------|------------|------------|------------|
E |-6-6-6-x-|-6-6-6-x-|-6-6-6-x-|-6-6-6-x-|-8--8-------|------------|------------|------------|


Pont

    Bm                                      F#m
e |-2-2-2-x-|-2-2-2-x-|-2-2-2-x-|-2-2-2-x-|-9--9--9--x-|-9--9--9--x-|-9--9--9--x-|-9--9--9--x-|
B |-3-3-3-x-|-3-3-3-x-|-3-3-3-x-|-3-3-3-x-|-10-10-10-x-|-10-10-10-x-|-10-10-10-x-|-10-10-10-x-|
G |-4-4-4-x-|-4-4-4-x-|-4-4-4-x-|-4-4-4-x-|-11-11-11-x-|-11-11-11-x-|-11-11-11-x-|-11-11-11-x-|
D |-4-4-4-x-|-4-4-4-x-|-4-4-4-x-|-4-4-4-x-|-11-11-11-x-|-11-11-11-x-|-11-11-11-x-|-11-11-11-x-|
A |-2-2-2-x-|-2-2-2-x-|-2-2-2-x-|-2-2-2-x-|-9--9--9--x-|-9--9--9--x-|-9--9--9--x-|-9--9--9--x-|
E |-2-2-2-x-|-2-2-2-x-|-2-2-2-x-|-2-2-2-x-|-9--9--9--x-|-9--9--9--x-|-9--9--9--x-|-9--9--9--x-|

    A                                       E
e |-5-5-5-x-|-5-5-5-x-|-5-5-5-x-|-5-5-5-x-|-0-0-0-x-|-0-0-0-x-|-0-0-0-x-|-0-0-0-x-|
B |-5-5-5-x-|-5-5-5-x-|-5-5-5-x-|-5-5-5-x-|-0-0-0-x-|-0-0-0-x-|-0-0-0-x-|-0-0-0-x-|
G |-6-6-6-x-|-6-6-6-x-|-6-6-6-x-|-6-6-6-x-|-1-1-1-x-|-1-1-1-x-|-1-1-1-x-|-1-1-1-x-|
D |-7-7-7-x-|-7-7-7-x-|-7-7-7-x-|-7-7-7-x-|-2-2-2-x-|-2-2-2-x-|-2-2-2-x-|-2-2-2-x-|
A |-7-7-7-x-|-7-7-7-x-|-7-7-7-x-|-7-7-7-x-|-2-2-2-x-|-2-2-2-x-|-2-2-2-x-|-2-2-2-x-|
E |-5-5-5-x-|-5-5-5-x-|-5-5-5-x-|-5-5-5-x-|-0-0-0-x-|-0-0-0-x-|-0-0-0-x-|-0-0-0-x-|

    Bm                                      F#m
e |-2-2-2-x-|-2-2-2-x-|-2-2-2-x-|-2-2-2-x-|-9--9--9--x-|-9--9--9--x-|-9--9--9--x-|-9--9--9--x-|
B |-3-3-3-x-|-3-3-3-x-|-3-3-3-x-|-3-3-3-x-|-10-10-10-x-|-10-10-10-x-|-10-10-10-x-|-10-10-10-x-|
G |-4-4-4-x-|-4-4-4-x-|-4-4-4-x-|-4-4-4-x-|-11-11-11-x-|-11-11-11-x-|-11-11-11-x-|-11-11-11-x-|
D |-4-4-4-x-|-4-4-4-x-|-4-4-4-x-|-4-4-4-x-|-11-11-11-x-|-11-11-11-x-|-11-11-11-x-|-11-11-11-x-|
A |-2-2-2-x-|-2-2-2-x-|-2-2-2-x-|-2-2-2-x-|-9--9--9--x-|-9--9--9--x-|-9--9--9--x-|-9--9--9--x-|
E |-2-2-2-x-|-2-2-2-x-|-2-2-2-x-|-2-2-2-x-|-9--9--9--x-|-9--9--9--x-|-9--9--9--x-|-9--9--9--x-|

    A                                       C#m
e |-5-5-5-x-|-5-5-5-x-|-5-5-5-x-|-5-5-5-x-|-4-4-4-x-|-4-4-4-x-|-4-4-4-x-|-4-4-4-x-|
B |-5-5-5-x-|-5-5-5-x-|-5-5-5-x-|-5-5-5-x-|-5-5-5-x-|-5-5-5-x-|-5-5-5-x-|-5-5-5-x-|
G |-6-6-6-x-|-6-6-6-x-|-6-6-6-x-|-6-6-6-x-|-6-6-6-x-|-6-6-6-x-|-6-6-6-x-|-6-6-6-x-|
D |-7-7-7-x-|-7-7-7-x-|-7-7-7-x-|-7-7-7-x-|-6-6-6-x-|-6-6-6-x-|-6-6-6-x-|-6-6-6-x-|
A |-7-7-7-x-|-7-7-7-x-|-7-7-7-x-|-7-7-7-x-|-4-4-4-x-|-4-4-4-x-|-4-4-4-x-|-4-4-4-x-|
E |-5-5-5-x-|-5-5-5-x-|-5-5-5-x-|-5-5-5-x-|-4-4-4-x-|-4-4-4-x-|-4-4-4-x-|-4-4-4-x-|

    Bm                                      E
e |-2-2-2-x-|-2-2-2-x-|-2-2-2-x-|-2-2-2-x-|-0-------|---------|---------|---------|
B |-3-3-3-x-|-3-3-3-x-|-3-3-3-x-|-3-3-3-x-|-0-------|---------|---------|---------|
G |-4-4-4-x-|-4-4-4-x-|-4-4-4-x-|-4-4-4-x-|-1-------|---------|---------|---------|
D |-4-4-4-x-|-4-4-4-x-|-4-4-4-x-|-4-4-4-x-|-2-------|---------|---------|---------|
A |-2-2-2-x-|-2-2-2-x-|-2-2-2-x-|-2-2-2-x-|-2-------|---------|---------|---------|
E |-2-2-2-x-|-2-2-2-x-|-2-2-2-x-|-2-2-2-x-|-0-------|---------|---------|---------|







    A                                       C#m
e |-5-5-5-x-|-5-5-5-x-|-5-5-5-x-|-5-5-5-x-|-4-4-4-x-|-4-4-4-x-|-4-4-4-x-|-4-4-4-x-|
B |-5-5-5-x-|-5-5-5-x-|-5-5-5-x-|-5-5-5-x-|-5-5-5-x-|-5-5-5-x-|-5-5-5-x-|-5-5-5-x-|
G |-6-6-6-x-|-6-6-6-x-|-6-6-6-x-|-6-6-6-x-|-6-6-6-x-|-6-6-6-x-|-6-6-6-x-|-6-6-6-x-|
D |-7-7-7-x-|-7-7-7-x-|-7-7-7-x-|-7-7-7-x-|-6-6-6-x-|-6-6-6-x-|-6-6-6-x-|-6-6-6-x-|
A |-7-7-7-x-|-7-7-7-x-|-7-7-7-x-|-7-7-7-x-|-4-4-4-x-|-4-4-4-x-|-4-4-4-x-|-4-4-4-x-|
E |-5-5-5-x-|-5-5-5-x-|-5-5-5-x-|-5-5-5-x-|-4-4-4-x-|-4-4-4-x-|-4-4-4-x-|-4-4-4-x-|
                            Hum hum hummmmm hum...
    F#m                                                 E
e |-9--9--9--x-|-9--9--9--x-|-9--9--9--x-|-9--9--9--x-|-0-0-0-x-|-0-0-0-x-|-0-0-0-x-|-0-0-0-x-|
B |-10-10-10-x-|-10-10-10-x-|-10-10-10-x-|-10-10-10-x-|-0-0-0-x-|-0-0-0-x-|-0-0-0-x-|-0-0-0-x-|
G |-11-11-11-x-|-11-11-11-x-|-11-11-11-x-|-11-11-11-x-|-1-1-1-x-|-1-1-1-x-|-1-1-1-x-|-1-1-1-x-|
D |-11-11-11-x-|-11-11-11-x-|-11-11-11-x-|-11-11-11-x-|-2-2-2-x-|-2-2-2-x-|-2-2-2-x-|-2-2-2-x-|
A |-9--9--9--x-|-9--9--9--x-|-9--9--9--x-|-9--9--9--x-|-2-2-2-x-|-2-2-2-x-|-2-2-2-x-|-2-2-2-x-|
E |-9--9--9--x-|-9--9--9--x-|-9--9--9--x-|-9--9--9--x-|-0-0-0-x-|-0-0-0-x-|-0-0-0-x-|-0-0-0-x-|

Refrain fin :

    F                                       Dm
e ||-1-1-1-x-|-1-1-1-x-|-1-1-1-x-|-1-1-1-x-|-5-5-5-x-|-5-5-5-x-|-5-5-5-x-|-5-5-5-x-|
B ||-1-1-1-x-|-1-1-1-x-|-1-1-1-x-|-1-1-1-x-|-6-6-6-x-|-6-6-6-x-|-6-6-6-x-|-6-6-6-x-|
G ||-2-2-2-x-|-2-2-2-x-|-2-2-2-x-|-2-2-2-x-|-7-7-7-x-|-7-7-7-x-|-7-7-7-x-|-7-7-7-x-|
D ||-3-3-3-x-|-3-3-3-x-|-3-3-3-x-|-3-3-3-x-|-7-7-7-x-|-7-7-7-x-|-7-7-7-x-|-7-7-7-x-|
A ||-3-3-3-x-|-3-3-3-x-|-3-3-3-x-|-3-3-3-x-|-5-5-5-x-|-5-5-5-x-|-5-5-5-x-|-5-5-5-x-|
E ||-1-1-1-x-|-1-1-1-x-|-1-1-1-x-|-1-1-1-x-|-5-5-5-x-|-5-5-5-x-|-5-5-5-x-|-5-5-5-x-|

    A#                                      C
e |-6-6-6-x-|-6-6-6-x-|-6-6-6-x-|-6-6-6-x-|-8--8--8--x-|-8--8--8--x-|-8--8--8--x-|-8--8--8--x-||
B |-6-6-6-x-|-6-6-6-x-|-6-6-6-x-|-6-6-6-x-|-8--8--8--x-|-8--8--8--x-|-8--8--8--x-|-8--8--8--x-||
G |-7-7-7-x-|-7-7-7-x-|-7-7-7-x-|-7-7-7-x-|-9--9--9--x-|-9--9--9--x-|-9--9--9--x-|-9--9--9--x-||
D |-8-8-8-x-|-8-8-8-x-|-8-8-8-x-|-8-8-8-x-|-10-10-10-x-|-10-10-10-x-|-10-10-10-x-|-10-10-10-x-||
A |-8-8-8-x-|-8-8-8-x-|-8-8-8-x-|-8-8-8-x-|-10-10-10-x-|-10-10-10-x-|-10-10-10-x-|-10-10-10-x-||
E |-6-6-6-x-|-6-6-6-x-|-6-6-6-x-|-6-6-6-x-|-8--8--8--x-|-8--8--8--x-|-8--8--8--x-|-8--8--8--x-||

(x5)

    F                                       Dm
e |-1-1-1-x-|-1-1-1-x-|-1-1-1-x-|-1-1-1-x-|-5-5-5-x-|-5-5-5-x-|-5-5-5-x-|-5-5-5-x-|
B |-1-1-1-x-|-1-1-1-x-|-1-1-1-x-|-1-1-1-x-|-6-6-6-x-|-6-6-6-x-|-6-6-6-x-|-6-6-6-x-|
G |-2-2-2-x-|-2-2-2-x-|-2-2-2-x-|-2-2-2-x-|-7-7-7-x-|-7-7-7-x-|-7-7-7-x-|-7-7-7-x-|
D |-3-3-3-x-|-3-3-3-x-|-3-3-3-x-|-3-3-3-x-|-7-7-7-x-|-7-7-7-x-|-7-7-7-x-|-7-7-7-x-|
A |-3-3-3-x-|-3-3-3-x-|-3-3-3-x-|-3-3-3-x-|-5-5-5-x-|-5-5-5-x-|-5-5-5-x-|-5-5-5-x-|
E |-1-1-1-x-|-1-1-1-x-|-1-1-1-x-|-1-1-1-x-|-5-5-5-x-|-5-5-5-x-|-5-5-5-x-|-5-5-5-x-|

    A#                                      C
e |-6-6-6-x-|-6-6-6-x-|-6-6-6-x-|-6-6-6-x-|-8--8-------|------------|------------|------------||
B |-6-6-6-x-|-6-6-6-x-|-6-6-6-x-|-6-6-6-x-|-8--8-------|------------|------------|------------||
G |-7-7-7-x-|-7-7-7-x-|-7-7-7-x-|-7-7-7-x-|-9--9-------|------------|------------|------------||
D |-8-8-8-x-|-8-8-8-x-|-8-8-8-x-|-8-8-8-x-|-10-10------|------------|------------|------------||
A |-8-8-8-x-|-8-8-8-x-|-8-8-8-x-|-8-8-8-x-|-10-10------|------------|------------|------------||
E |-6-6-6-x-|-6-6-6-x-|-6-6-6-x-|-6-6-6-x-|-8--8-------|------------|------------|------------||



Paroles

Hum hum huuummmm...

Dans mon petit coin d'espace temps
Encore un matin de travers
L'automne est déjà grelottant
Café, terrasse et courant d'air
A regarder passer les gens
Réveillés sans en avoir l'air
Hier qui sait comme souvent
Fini par me mettre à l'envers

J'ai encore raté
Toujours à côté
Tout décalé rien calculé
J'ai pas pensé pas vu passer le changement d'heure
J'ai encore raté
Toujours à côté
Tout décalé rien calculé
J'ai pas pensé à changer de bonne humeur

Hum hum huuummmm...

Dans mon petit coin d'espace temps
Sans rendez-vous et sans horaires
Profiter de l'instant présent
Et du suivant si nécessaire
A se laisser passer devant
Par ceux qui ont des choses à faire
Fumée qui se perd dans le vent
Caché sous mon manteau d'hivers

J'ai encore raté
Toujours à côté
Tout décalé rien calculé
J'ai pas pensé pas vu passer le changement d'heure
J'ai encore raté
Toujours à côté
Tout décalé rien calculé
J'ai pas pensé à changer de bonne humeur

Dans mon petit coin d'espace temps
Toute une journée sans repères
Ne pas savoir ce qui m'attend
Et faire ce que je préfère
Profiter de l'instant présent
Et du suivant si nécessaire
A vivre sans emploi du temps
Quand mon boulot c'est ne rien faire
Que regarder passer les gens
Caché sous mon manteau d'hiers

Hum hum huuummmm...

J'ai encore raté
Toujours à côté
Tout décalé rien calculé
J'ai pas pensé pas vu passer le changement d'heure
J'ai encore raté
Toujours à côté
Tout décalé rien calculé
J'ai pas pensé à changer de bonne humeur

J'ai encore raté
Toujours à côté
Tout décalé rien calculé
J'ai pas pensé pas vu passer le changement d'heure
J'ai encore raté
Toujours à côté
Tout décalé rien calculé
J'ai pas pensé à changer de bonne humeur




Commentaires : ( 0 )



Écrire un commentaire sur cette tablature